Who Sang Francesca? Roy Harper

Roy Harper Flat Baroque and Berserk cover art
Release information
Release Date: 1970
Genre: Rock Folk, World, & Country
Style: Psychedelic Rock/Folk/Folk Rock/Soft Rock
length: 1:21
composer: Roy Harper
Intro

-3-----------------------3--------------------------------------------
----------------------------------------------------------------------
---------0--------0------------0--------------0-----------------------
----0----------0------0-----0------------0-------0--------------------
------------0----------------------0h1--------------------------------
---------------------------------------------------------------------- Repeat

Verse

|--3----------------------------3-------------------------------------
|---------------------------------------------------------------------
|-----------0------------0---------------0----------------------------
|------0-------------0-------0------0------------0--------------------
|----------------0----------------------------0-----------------------
|---------------------------------------------------------------------
Hey

----------------------------------3--------------------------3--------
---3------------------------------------------------------------------
------------0-------------0-----------------0-----------0-------------
-------0-------------0-----------------0------------0-----0-----------
----------------0------------0------------------0---------------------
----------------------------------------------------------------------
France... ...sca

---0-----------------2-----------------3-------------------------3----
-------2--------------------------------------------------------------
---------0-----0--------0----------0------------0----------0----------
------------0--------2----------2----------0-----------0-------0------
----------------------------3-----------------------0-----------------
----------------------------------------------------------------------
You gave me no warning Repeat etc

Second Bit

Simply the same picking rhythm on the chords C to G

C G
Thanks for leaving the sunshine
C G
Thanks for leaving me
C G
Thanks for being all mine

then

|-0h2-----------------3--------------------------3-------------------3-|
|--------------------------------------------------------------------2-|
|-----0----------0-----------0-------------0-----------0----------0--0-|
|-0h2--------2-----------0-------0------0-----0-----0-----------0----0-|
|-------2----------------------------1---------------------0h1-------3-|
|--------------------------------------------------------------------3-|
Thanks for being free

Tracklist
CD 1
  • 1 Don't You Grieve
  • 2 I Hate the White Man
  • 3 Feeling All the Saturday
  • 4 How Does It Feel
  • 5 Goodbye
  • 6 Another Day
  • 7 Davey
  • 8 East of the Sun
  • 9 Tom Tiddler's Ground
  • 10 Francesca
  • 11 Song of the Ages
  • 12 Hell's Angels